akaawol.com Tag Line





Name That Song!

Wow, looking over my posts I see I haven't posted any ukulele songs here in a bit. Well I'm here today to correct that with a song that is often the song people at least on this side of the world want to learn first, as it's useful for celebrations for both friends and family. Any guess from that description what it is?

Here are the tabs; play it and I'm sure you will recognize it in the first few notes.

A|------------|-------------|------------|-------------|
E|------------|-1--0--------|------------|-3--1--------|
C|-0--0--2--0-|-------------|-0--0--2--0-|-------------|
G|------------|-------------|------------|-------------|

A|-------3--0-|-------------|------------|-1--1--0-----|
E|------------|-1-----0-----|------------|-------------|
C|-0--0-------|-----------2-|------------|-------------|
G|------------|-------------|------------|-------------|

A|-------------|-------------|------------|-------------|
E|-1-----3-----|-1-----------|------------|-------------|
C|-------------|-------------|------------|-0--2--0--3--|
G|-------------|-------------|------------|-------------|

Well, that's all there is to it. Did you guess it? Well if not, here is a hint: If you're lucky enough to have great friends, they will sing this to you once a year to commemorate your travelling on the planet earth one full rotation around the sun. Have a blessed day!


comments powered by Disqus